Avenged Sevenfold - Burn It Down Better Bass Noten kostenlos herutnerladen oder online abspielen

Bass Noten für Burn It Down Better von Avenged Sevenfold kostenlos herutnerladen oder online abspielen: Datei .txt, 4.62 kb hat 42 Aufrufe und 0 Downloads.

Download bass noten "Burn It Down Better" (Avenged Sevenfold)

Avenged Sevenfold Bandname
Burn It Down Better Songname
Bass Noten Registerkarten-Typ
4.62 kb Dateigröße
.TXT Dateityp
42 Aufrufe
0 Downloads
 
Bist du ein Roboter?

Burn It Down Better bass noten lesen onder online abpsielen

                    This is the only 100% right one

Intro
G|-------------|
D|-------------|
A|-------------|
D|-00-0-0-0-00-| x8

Pre-Verse
G|---------------------|
D|---------------------|
A|-3333----------------|
D|------5555-3333-5555-| x2

G|-----------------------------------------|
D|--------------------------2222-----------|
A|-----------0000-2222-3333------0000------|
D|-3333-5555--------------------------5555-|

Verse
G|--------------------|
D|--------------------|
A|-00-1-00-3-00-1-000-|
D|--------------------|

Pre-Chorus
G|---------------------------------------------|
D|---------------------------------------------|
A|-5555-4444-1111-444444----8~---7~---10~---8~-|
D|-----------------------000--000--000---000---|x2

Chorus
G|----------------------------|
D|----------------------------|
A|-5555-3333-1111111131010-13-|
D|------------------------5---|

G|--------------------------------|
D|--------------------------------|
A|-5555-3333-11111111111----------|
D|-----------------------00000000-|

G|----------------------------|
D|----------------------------|
A|-5555-3333-1111111131010-13-|
D|------------------------5---|

G|-----------------------|
D|-----------------------|
A|-5555-3333-11111111111-|
D|-----------------------|

After Verse
G|----------------|
D|----------------|
A|----------------|
D|-000000-05~-08~-|x4


Pre-Verse
G|---------------------|
D|---------------------|
A|-3333----------------|
D|------5555-3333-5555-| x2

G|-----------------------------------------|
D|--------------------------2222-----------|
A|-----------0000-2222-3333------0000------|
D|-3333-5555--------------------------5555-|

Verse
G|--------------------|
D|--------------------|
A|-00-1-00-3-00-1-000-|
D|--------------------|

Pre-Chorus
G|---------------------------------------------|
D|---------------------------------------------|
A|-5555-4444-1111-444444----8~---7~---10~---8~-|
D|-----------------------000--000--000---000---|x2

Chorus 2
G|----------------------------|
D|----------------------------|
A|-5555-3333-1111111131010-13-|
D|------------------------5---|

G|-----------------------------|
D|------2222-3333-5555---------|
A|-5555----------------0000000-|
D|-----------------------------|

G|----------------------------|
D|----------------------------|
A|-5555-3333-1111111131010-13-|
D|------------------------5---|

G|---------------------------------|
D|------2222-3333-5555-------------|
A|-5555---------------------3---1~-|
D|---------------------00-0---0----|

Bridge Part 1
G|---------------------|
D|---------------------|
A|---------------------|
D|-0000-0000-0000-3/8~-|

G|----------------|
D|----------------|
A|----------------|
D|-0000-0000-0000-| x2

G|-----------------|
D|-----------------|
A|-----------------|
D|-00000-0-5~-0-8~-| x4

Bridge Part 2
G|-------------------------------------------|
D|---------------------------2222------------|
A|-----------0000-2222-3333-------0000-------|
D|-3333-5555----------------------------3333-| x3

G|--------------------------------|
D|---------------------------2222-|
A|-----------0000-2222-3333-------|
D|-3333-5555----------------------|

Guitar solo
G|--------------------|
D|--------------------|
A|-00-1-00-3-00-1-000-|
D|--------------------|


and then
G|-------------------------|
D|-------------------------|
A|-5555-4444-11111-4444444-|
D|-------------------------|

G|----------------------------|
D|----------------------------|
A|-5555-3333-1111111131010-13-|
D|------------------------5---|

G|-----------------------------|
D|------2222-3333-5555---------|
A|-5555----------------0000000-|
D|-----------------------------|

G|----------------------------|
D|----------------------------|
A|-5555-3333-1111111131010-13-|
D|------------------------5---|

G|---------------------------------|
D|------2222-3333-5555-------------|
A|-5555---------------------3---1~-|
D|---------------------00-0---0----|

Outro
G|--------------------------------------------|
D|--------------------------------------------|
A|--------------000000-1-1-1------------------|
D|-555555-3-3-3--------------555555-3-3-3--0~-|

G|------------------------------------------|
D|------------------------------------------|
A|------------0000-1111------------------1~-|
D|-5555-3333-------------5555-3333--5-5-----|                    

Kommentare für bass noten — Burn It Down Better (Avenged Sevenfold)

Andere Burn It Down Better von Avenged Sevenfold Registerkarten:

Zuletzt angesehene Avenged Sevenfold Registerkarten: