Avenged Sevenfold - Chapter Gitarrennoten kostenlos herutnerladen oder online abspielen

Gitarrennoten für Chapter von Avenged Sevenfold kostenlos herutnerladen oder online abspielen: Datei .txt, 13.97 kb hat 81 Aufrufe und 0 Downloads.

Download gitarrennoten "Chapter" (Avenged Sevenfold)

Avenged Sevenfold Bandname
Chapter Songname
Gitarrennoten Registerkarten-Typ
13.97 kb Dateigröße
.TXT Dateityp
81 Aufrufe
0 Downloads
 
Bist du ein Roboter?

Chapter gitarrennoten lesen onder online abpsielen

                    tabed by reuben jones
chapter 4 on waking the fallen

:       Palm Mute
.       Sticatto
b       Bend
r       Release
h       Hammer
p       Pull
/ or   Slide
~       Vibrato

drop d
--------------------------

Intro:
e-----------------------------------------
B-----------------------------------------
G----------------------------------------- Play
D-0-----2-----3-----------0-----7-----8---  2x
A-0-----2-----3-----------0-----7-----8---
D-0-----2-----3-----------0-----7-----8---

e-------------------------------
B-------------------------------
G-------:-:-:-------:-:-:-:-:--- Play
D-0-----0-0-0-0-----0-0-0-0-0---  8x
A-0-----0-0-0-0-----0-0-0-0-0---
D-0-----0-0-0-0-----0-0-0-0-0---

Pre-Verse:
Guitar One:
e----------------------------------------------------------------------------------------------
B----------------------------------------------------------------------------------------------
G---------------------------------------------------------------------------------------------- Play x2
D----------/5-------------7---5------------------------------5---------------------------------
A--5--7--8-----8--7--3------------8----7---8---5----7---8-------8----7----5---7---8---7---8---7
D----------------------------------------------------------------------------------------------


Guitar Two:
e-------------------------------------------------------------------------
B-------------------------------------------------------------------------
G------------------------------------------------------------------------- Play
D-----5--7-/8--7--5----10--8-7--8--10----5--7-/8--7--5-----5--7----5--7---  2x
A--8----------------7-----------------8-----------------5-------7---------
D-------------------------------------------------------------------------

Verse:
Both Guitars:
e--------------------------------------------------------------------
B--------------------------------------------------------------------
G----------------------------------3---xxx3-xxx3-xx------------------ Play
D--0---xxx0-xxx0-xx3-3-3-3-2-2-2-2-3---xxx3-xxx3-xx3-3-3-3-2-2-2-2---  2x
A--0---xxx0-xxx0-xx3-3-3-3-3-3-3-3-1---xxx1-xxx1-xx3-3-3-3-3-3-3-3---
D--0---xxx0-xxx0-xx3-3-3-3-2-2-2-2-----------------3-3-3-3-2-2-2-2---

Chorus:
e--------------------------------------------------------------------
B--------------------------------------------------------------------
G--------------------------------------------------------------------
D--0-0-0-0-0-0-0-0-8-8-8-8-8-8-8-8-3-3-3-3-3-3-3-3-2-2-2-2-2-2-2-2---
A--0-0-0-0-0-0-0-0-8-8-8-8-8-8-8-8-3-3-3-3-3-3-3-3-3-3-3-3-3-3-3-3---
D--0-0-0-0-0-0-0-0-8-8-8-8-8-8-8-8-3-3-3-3-3-3-3-3-2-2-2-2-2-2-2-2---

e--------------------------------------------------------------------
B--------------------------------------------------------------------
G--------------------------------------------------6-6-6-6-6-6-6-6---
D--0-0-0-0-0-0-0-0-8-8-8-8-8-8-8-8-3-3-3-3-3-3-3-3-7-7-7-7-7-7-7-7---
A--0-0-0-0-0-0-0-0-8-8-8-8-8-8-8-8-3-3-3-3-3-3-3-3-4-4-4-4-4-4-4-4---
D--0-0-0-0-0-0-0-0-8-8-8-8-8-8-8-8-3-3-3-3-3-3-3-3-------------------

Guitar One:
e---------------------------------------------------------
B---------------------------------------------------------
G--------------------------------------------------------- Play
D-7---7-----7---5-----2-------2---3---3-----3---5-----2---  2x
A-7---7-----7---5-----2-------2---3---3-----3---5-----2---
D-7---7-----7---5-----2-------2---3---3-----3---5-----2---


Guitar Two:
e-------------------------------------------------------------------------
B-------------------------------------------------------------------------
G-14---14---14-14-----12----9-----9-10---10---10---10---12---14---15-14---
D--x----x----x--x------x----x-----x--x----x----x----x----x----x----x--x---
A-12---12---12-12-----10----7-----7--8----8----8----8---10---12---13-12---
D-------------------------------------------------------------------------

e------------------------------------------------------------------
B------------------------------------------------------------------
G-14---14---14-14-----12----9-----9-10---10---10---10---12-----9---
D--x----x----x--x------x----x-----x--x----x----x----x----x-----x---
A-12---12---12-12-----10----7-----7--8----8----8----8---10-----7---
D------------------------------------------------------------------

Guitar One:
e-------------------------------------------------------------------
B-------------------------------------------------------------------
G-------------------------------------------------------------------
D-7---7-7-7-7-7-7-7-7-7-7-7-7-7-7-7-7-7-7-7-7-7-7-7-7-7-7-7-7-7-7---
A-7---7-7-7-7-7-7-7-7-7-7-7-7-7-7-7-7-7-7-7-7-7-7-7-7-7-7-7-7-7-7---
D-7---7-7-7-7-7-7-7-7-7-7-7-7-7-7-7-7-7-7-7-7-7-7-7-7-7-7-7-7-7-7---
      : : : : : : : : : : : : : : : : : : : : : : : : : : : : : :

Guitar Two:
e-----------
B-----------
G-6-----9---
D-x-----x---
A-4-----7---
D-----------

Post Chorus:
Guitar One:
e-------------------------------------------------6---------------------------
B--------6---10---8---6-------6~----------6---10-------10---8h10p8-----------
G---/7--------------------9-----------/7----------------------------9---10---
D-----------------------------------------------------------------------------
A-----------------------------------------------------------------------------------|
D----------------------------------------------------------------------------- Play |
                                                                                    |
e-----------------------------------------------------------------------------  2x  |
B--------6---10---8---6---------------6---10----------6---10~----------------------|
G---/7--------------------9---/7--------------/9-----------------------------
D-----------------------------------------------------------------------------
A-----------------------------------------------------------------------------
D-----------------------------------------------------------------------------

Guitar Two:
e-------------------------------------------------------------------------------
B----------------------------------------------------/8-------------------------
G--------7---10---9---7----5---7~----------7---10--------10---9h10p9------7---
D---/7---------------------------------/7-----------------------------10--------
A-------------------------------------------------------------------------------------|
D------------------------------------------------------------------------------- Play |
                                                                                      |
e-------------------------------------------------------------------------------  2x  |
B-------------------------------------------------------------------------------------|
G--------7---10---9---7---5----------7---10-----------7---10~-----------------
D---/7-------------------------/8--------------/10------------------------------
A-------------------------------------------------------------------------------
D-------------------------------------------------------------------------------

Guitar Three (Overdubbing):
e-------------------------------------------------------------------
B-------------------------------------------------------------------
G-7-7-7-7-7-7-7-7-5-5-5-5-5-5-5-3---3-3-3-3-3-3-3-5-5-5-5-5-5-5-5--- Play
D-7-7-7-7-7-7-7-7-5-5-5-5-5-5-5-3---3-3-3-3-3-3-3-5-5-5-5-5-5-5-5---  4x
A-5-5-5-5-5-5-5-5-3-3-3-3-3-3-3-1---1-1-1-1-1-1-1-3-3-3-3-3-3-3-3---
D-------------------------------------------------------------------

Repeat Verse

Repeat Chorus (Play post chorus only once instead of twice)

Bridge:
e----------------------------------------------------------------------
B----------------------------------------------------------------------
G------:-:-:-:------:-:-:-:------------:-:-:-:------:-:-:-:------------ Play
D-/7---0-0-0-0-/7---0-0-0-0-/7/875---0-0-0-0-/7---0-0-0-0-/7/875---  2x
A-/7---0-0-0-0-/7---0-0-0-0-/7/875---0-0-0-0-/7---0-0-0-0-/7/875---
D-/7---0-0-0-0-/7---0-0-0-0-/7/875---0-0-0-0-/7---0-0-0-0-/7/875---

e-----------------------------------------
B-----------------------------------------
G----------------------------------------- Play
D-0-----2-----3-----------0-----7-----8---  2x
A-0-----2-----3-----------0-----7-----8---
D-0-----2-----3-----------0-----7-----8---

Time change to 3/4:
e----------------------------------------------------
B----------------------------------------------------
G---------------------------------------------------- Play
D-0-0-0-0-0-0-/7-7-7-7-5-7-8-8-8-8-8-8-3-3-3-2-2-2---  4x
A-0-0-0-0-0-0-/7-7-7-7-5-7-8-8-8-8-8-8-3-3-3-3-3-3---
D-0-0-0-0-0-0-/7-7-7-7-5-7-8-8-8-8-8-8-3-3-3-2-2-2---

Repeat Pre-Verse.

e-----
B-----
G-.---
D-0---
A-0---
D-0---

Outro/Solo:when youve got the notes right work on the feel, tempo and timing of the solo and play it as smooth
as possible.

Guitar One:                        
e------------------------------------------------------------15b(17)r15-15----------------------------17b(18)r17b(18)r17---
B-----------------------------------------------------/18------------------17-15----------18-15----------------------------
G--------------------------9-/14--------------------------15---------------------14-15-17-------15-17----------------------
D--------------------10-12-------15-14-12-15~---14-15----------------------------------------------------------------------
A--------------8-/12-------------------------------------------------------------------------------------------------------
D--------12-10-------------------------------------------------------------------------------------------------------------

e-13----------------------------------------------------15----------------------------------
B----17-------------------------18-17-13-------------17----18-17-13-------------------------
G-------15b(15.5)r15---------------------14----14-17----------------12b(13)r12--------------
D--------------------14b(15)r14-------------15---------------------------------14-15~------
A-------------------------------------------------------------------------------------------
D-------------------------------------------------------------------------------------------

e-------------------------------------------------------------------------------------17b(18)r17b(18)r17---
B------------------------------------17----20b(21)r20---20-17------------/18-15----------------------------
G----------------17---------------------14--------------------14h15h17----------15-17----------------------
D----------12-14----15---14---15~-------------------------------------------------------------------------
A----------------------------------------------------------------------------------------------------------
D-12-14-15-------------------------------------------------------------------------------------------------

e-13------------------13----------------------------15---------------------------
B----15------------------15----------------------18----18-17-------17h13----15---
G-------14-15---10---------15-14-------------17-------------17-15-------15------
D---------------------------------15-17p15h17------------------------------------
A--------------------------------------------------------------------------------
D--------------------------------------------------------------------------------

e------------17-------17-16b(17)-----15~--------------------------------
B--15b(16)-------15-------------------------------------------------------
G-----------------------------------------------------14-14-14-12-14-15---
D------------------------------------------------------x--x--x--x--x--x---
A-----------------------------------------------------12-12-12-10-12-13---
D-------------------------------------------------------------------------

e-----------------------------------------------------------------------
B-----------------------------------------------------------------------
G-14-14-14-14-12-10-9-9-9-9-7-9-7-7-7-7-7-7-10-10-10-12-12-12-----------
D--x--x--x--x--x--x-x-x-x-x-x-x-x-x-x-x-x-x--x--x--x--x--x--x-----------
A-12-12-12-12-10--8-7-7-7-7-5-7-5-5-5-5-5-5--8--8--8-10-10-10-----------------------|
D----------------------------------------------------------------------- Play Until |
                                                                                    |
e-----------------------------------------------------------------------  Fade Out  |
B-----------------------------------------------------------------------------------|
G-10-10-10-10-10-10-9-9-9-9-9-9-9-10-10-10-10-10-10-14-14-14-12-14-15---
D--x--x--x--x--x--x-x-x-x-x-x-x-x--x--x--x--x--x--x--x--x--x--x--x--x---
A--8--8--8--8--8--8-7-7-7-7-7-7-7--8--8--8--8--8--8-12-12-12-10-12-13---
D-----------------------------------------------------------------------

Guitar Two:
e-------------------------------------------------------------------------------------------
B-------------------------------------------------------------------------------------------
G-:::-:-:-:-----:-:-:---:::-:-:-:-----:-:-:---:::-:-:-:-----:-:-:---:::-:-:-:---:::-:-:-:--- Play
D-000-0-0-0-----0-0-0---333-3-3-3-----3-3-3---888-8-8-8-----8-8-8---333-3-3-3---222-2-2-2---  2x
A-000-0-0-0-----0-0-0---333-3-3-3-----3-3-3---888-8-8-8-----8-8-8---333-3-3-3---222-2-2-2---
D-000-0-0-0-----0-0-0---333-3-3-3-----3-3-3---888-8-8-8-----8-8-8---333-3-3-3---222-2-2-2---

e----------------------------------------------------
B----------------------------------------------------
G---------------------------------------------------- Play Until
D-0-0-0-0-0-0-/7-7-7-7-5-7-8-8-8-8-8-8-3-3-3-2-2-2---  Fade Out
A-0-0-0-0-0-0-/7-7-7-7-5-7-8-8-8-8-8-8-3-3-3-3-3-3---
D-0-0-0-0-0-0-/7-7-7-7-5-7-8-8-8-8-8-8-3-3-3-2-2-2---

this is my first tab 4 mx and i took a month to get it as good as i could so here it is.
good choice with avenged sevenfold (A7X) who has prooved you dont have to go into ultra low tunings or use a seven 
string to create heavy, melodic metal. peace dudes and galls

Visit www.directTABS.com for more free tablature!                    

Kommentare für gitarrennoten — Chapter (Avenged Sevenfold)

Andere Chapter von Avenged Sevenfold Registerkarten:

Zuletzt angesehene Avenged Sevenfold Registerkarten: