Avenged Sevenfold - Chapter Four (var.2) Gitarrennoten kostenlos herutnerladen oder online abspielen

Gitarrennoten für Chapter Four (var.2) von Avenged Sevenfold kostenlos herutnerladen oder online abspielen: Datei .txt, 3.57 kb hat 132 Aufrufe und 0 Downloads.

Download gitarrennoten "Chapter Four (var.2)" (Avenged Sevenfold)

Avenged Sevenfold Bandname
Chapter Four Songname
Gitarrennoten Registerkarten-Typ
3.57 kb Dateigröße
.TXT Dateityp
132 Aufrufe
0 Downloads
 
Bist du ein Roboter?

Chapter Four (var.2) gitarrennoten lesen onder online abpsielen

                    Avenged Sevenfold
                                  Chapter Four
                                 From the album
                               "Waking the Fallen"

this tab has some crazy bending but that's the only thing that sounds right
to me. its a really cool solo and have fun with it. this is my 1st tab
This is the solo of the song.

Key:
b=bend
br=bend release
~~=tremelo



Tuning: Drop D 

                                 1/2
       bend 2 steps  2            ^             
                     ^            |             
                     |           /              
|----------|---------|----------/-----|---------12-----------|
|----------|--------13br--------------|------13----13--------|
|----------|-----14---------14--9br---|----------------------|
|-------10-|--12----------------------|----------------------|
|--0--8----|--------------------------|----------------------|
|----------|--------------------------|----------------------|


                                          1/2                1/2
                                           ^                  ^
                                           |                  |
|-15b~~----12----------12-|--13-----------17br~~-|---13-10----|-----|
|-------------13----13----|-----15---------------|-----------10br---|
|----------------14-------|--------14-15---------|------------------|
|-------------------------|----------------------|------------------|
|-------------------------|----------------------|------------------|
|-------------------------|----------------------|------------------|
                                                        1
                                                        ^
                                                        |
|---------|--13--12-----------------13-|---15-13-12-----|------|
|---------|---------10-----------10----|------------13--|------|
|--9--10--|------------10--5--10-------|---------------12br--9-|
|---------|----------------------------|-----------------------|
|---------|----------------------------|-----------------------|
|---------|----------------------------|-----------------------|
                           2                          full
                           ^      1/2                 ^
                           |       ^                  |
|----------------|---------|-------|--------12----|-15br~~--12-------12--|
|----------------|--------13br-----|-----13----13-|-----------13---13----|
|--10------------|-----14------14--9br------------|-------------14-------|
|-------------10-|--12----------------------------|----------------------|
|------0---8-----|--------------------------------|----------------------|
|----------------|--------------------------------|----------------------|

              1/2                1/2
               ^                  ^
               |                  |
|--13---------17br~~-|----13--10--|----------|--13-12---------------13-|
|----15--------------|-----------10br--------|--------10---------10----|
|------14-15---------|-----------------9--10-|-----------10-5-10-------|
|--------------------|-----------------------|-------------------------|
|--------------------|-----------------------|-------------------------|
|--------------------|-----------------------|-------------------------|




|--15-13-12----15-13-12-|-----15-13-12------10--|
|-----------13----------|--13------------10-----|
|-----------------------|--------------9--------|
|-----------------------|-----------------------|
|-----------------------|-----------------------|
|-----------------------|-----------------------|


and that's about it have fun playin it!                    

Kommentare für gitarrennoten — Chapter Four (var.2) (Avenged Sevenfold)

Andere Chapter Four (var.2) von Avenged Sevenfold Registerkarten:

Zuletzt angesehene Avenged Sevenfold Registerkarten: