Avenged Sevenfold - Brompton Cocktail Bass Noten kostenlos herutnerladen oder online abspielen

Bass Noten für Brompton Cocktail von Avenged Sevenfold kostenlos herutnerladen oder online abspielen: Datei .txt, 4.5 kb hat 57 Aufrufe und 0 Downloads.

Download bass noten "Brompton Cocktail" (Avenged Sevenfold)

Avenged Sevenfold Bandname
Brompton Cocktail Songname
Bass Noten Registerkarten-Typ
4.5 kb Dateigröße
.TXT Dateityp
57 Aufrufe
0 Downloads
 
Bist du ein Roboter?

Brompton Cocktail bass noten lesen onder online abpsielen

                    Tuning= Drop D
By Joel Hodgdon

:28
G----------------------------------------------------|X2
D----------------------------------------------------|
A-------------5--------------------------------------|
D---00008~7030-08070-000087030503--------------------|
:47
G--------------------------------------------------------|X2
D--------------------------------------------------------|
A--------------------------------------------------------|
D---0~0~0~0~0~7b-0~0~0~0~0~7-0~0~0~0~0~7b----------------|
1:00
G------------------------------------------------------|X4
D------------------------------------------------------|
A------------------------------------------------------|
D---800500303003006/7----------------------------------|
1:14
G----------------------------------------------------------------------|X2
D----------------------------------------------------------------------| (Second time play
A-----------------------------------------------------   (8/7)and(0003-|)
D---8(8/7)000000-5/7-000000-8/7-000000-5/7-000000(0003-----------------|
1:27
G-----------------------------------------------------|X2
D-----------------------------------------------------|
A--------33333-33333----------------------------------|
D---00000-----------55555-----------------------------|
1:39
G---------------------------------------------------------|X2
D---------------------------------------------------------|
A---------------------------------------------------------|
D---0~0~0~0~0~7b-0~0~0~0~0~7b-----------------------------|
1:51
G------------------------------------------------------|X4
D------------------------------------------------------|
A------------------------------------------------------|
D---800500303003006/7----------------------------------|
2:04
G-----------------------------------------------------|
D-----------------------------------------------------|
A-----------------------------------------------------|
D---8-000000-5/7-000000-8/7-000000-5/7-000000---------|

G------------------------------------------------------|
D------------------------------------------------------|
A------------------------------------------------------|
D---8/7-0000000-5/7-000000-8/7-000000-5/7-003----------|
2:18
G------------------------------------------------------|X2
D------------------------------------------------------|
A--------33333-33333-----------------------------------|
D---00000-----------55555------------------------------|
2:30
G---------------------------------------------------------------|
D------------------3333333-555555-------------------------------|
A---5555555-3333333--------------5555555-3333333----------------|
D-----------------------------------------------3333333-5555555-|
2:42
G--------------------------------------------------------------------------| (second time
D-------------------------------------------------------------  play (7531-|
A--------------------------------------------------------------------------|   and go on)
D---3232223-2020002-3232223-2020002-656555/7(7~5~3~1)-4343335--------------|
3:11
G------------------------------------------------------------|X2
D------------------------------------------------------------|
A------------------------------------------------------------|
D---0~2~/8~57-3~5~232----------------------------------------|
3:25
G------------------------------------------------------|
D------------------------------------------------------|
A------------------------------------------------------|
D---8-000000-5/7-000000-8/7-000000-5/7-000000----------|

G-----------------------------------------------------|
D-----------------------------------------------------|
A-----------------------------------------------------|
D---8/7-0000000-5/7-0000000-8/7-0000000-5/7-003-------|
3:38
G----------------------------------------------------|X2
D----------------------------------------------------|
A--------33333-33333---------------------------------|
D---00000-----------55555----------------------------|
3:50
G----------------------------------------------------------------|
D------------------3333333-5555555-------------------------------|
A---5555555-3333333---------------5555555-3333333----------------|
D------------------------------------------------3333333-5555555-|

G-=-----------------------------------------------------|
D-------------------------------------------------------|
A-------------------------------------------------------|
D---0~0~0~0~0~7b-0~0~0~0~0~70---------------------------|                    

Kommentare für bass noten — Brompton Cocktail (Avenged Sevenfold)

Andere Brompton Cocktail von Avenged Sevenfold Registerkarten:

Zuletzt angesehene Avenged Sevenfold Registerkarten: